登录站点

用户名

密码

关于贝斯爬格子的方法

11已有 4164 次阅读  2013-11-19 10:15

关于贝斯爬格子的方法
现在的BASS基础练习可谓五花八门”---什么样的都有

可究竟哪一种爬格子的方法才是最有效率的呢?

1234,  1243,  1324,  1342,  1423, 1432


2134,  2143,  2314,  2341,  2413, 2431


3124,  3142,  3214,  3241,  3412, 3421


4123,  4132,  4213,  4231,  4312, 4321
如此循环一次,1个半小时就过去了,呵呵。

.我就是12344321,我一般爬格子也就一个小时左右。在兼顾练一点slap.

一弦1234 二弦2345 三弦3456 四弦4567 三弦5678 二弦6789 一弦789 10……………………

  
我每天练琴都要扒3个小时的格子!
早,午,晚!各一小时!
我扒格子是一直扒到底,然后再扒回去!
速度不用太快!我觉得慢点会强力自己的耐力!
速度太快反而会不清!

.某君的方法
-------------34
---------34----
-----34--------
---12--12--12--

."蜘蛛爬弦"练习。手指独立性的练习!

        
--------------------------------------------------------------------------------
E||----------------------|----------------------|
B||--1----3----4----2----|--2----4----5----3----|
G||----------------------|----------------------|
D||----------------------|----------------------|
A||--3----1----2----4----|--4----2----3----5----|
E||----------------------|----------------------|

|----------------------|----------------------|
|--3----5----6----4----|--4----6----7----5----|
|----------------------|----------------------|
|----------------------|----------------------|
|--5----3----4----6----|--6----4----5----7----|
|----------------------|----------------------|

|----------------------|----------------------||
|--5----7----8----6----|--6----8----9----7----||
|----------------------|----------------------||
|----------------------|----------------------||
|--7----5----6----8----|--8----6----7----9----||
|----------------------|----------------------||

一小节一小节的来,比如第一小节,

E||----------------------|
B||--1----3----4----2----|
G||----------------------|
D||----------------------|
A||--3----1----2----4----|
E||----------------------|

第一个两个C,第二个#A,第三个B,第四个#C

指头有规律的按,第一第二个用食指和无名指,第三第四个用中指和小指。

往下一品升半音再用这个指法按。

----------------------|
--2----4----5----3----|
----------------------|
----------------------|
--4----2----3----5----|
----------------------|

……
……

一直按到十品。算一轮。

再从十品按回去。

----------------------|
--3----5----4----2----|
----------------------|
----------------------|
--5----3----2----4----|
----------------------|

按照有规律的指法。逐渐的提高速度。

如果四根琴弦比较熟练了,就用五根琴弦来练习。

 

分享 举报

发表评论 评论 (4 个评论)

涂鸦板