百度提供广告
当前位置:主页 >> 乐谱在线 >> 吉他和弦谱 >> 

You And Me-Lifehouse

时间:2007-06-06 17:52来源: 作者: 点击:
-------------------------------------------------------------------------------
歌曲名:You and Me 
歌手/乐队:Lifehouse
编配者(转载来源):网络
-------------------------------------------------------------------------------

Tuning: standard

Chord voicings used:

     C       G      G/F#    Em      D(sus)  C/D     Cm     
E----3-------3-------3-------3-------2(3)----3-------3-----|
B----3-------3-------3-------3-------3-------3-------3-----|
G----0-------0-------0-------0-------2-------0-------0-----|
D----2-------0-------0-------2-------0-------0-------1-----|
A----3-------2-------X-------2-------0-------X-------X-----|
E----X-------3-------2-------0-------0-------X-------X-----|

Notes: 
1. D = Dsus 99% of the time in this song.
2. Hammer-ons played off the C chord focus on the D string with 0h2, 2p0 variations


Intro - G // C // G/F# // G/B // Em // D // C

Verse 1:

G           C
What day is it?
G/F#       G/B
And in what month
     Em          D         C
This clock never seemed so alive.
G            C
I cant keep up
   G/F#         G/B
And I cant back down
           Em   D
Ive been losing 
    C
So much time.

Chorus 1:

        G       C
Cause its you and me,
    G/B
And all other people
     C          G
With nothing to do,
C          D
Nothing to lose,

        G       C
Cause its you and me,
    G/B
And all other people,
    C            G
本站面向音乐爱好者,提供数万吉他谱,钢琴谱下载,吉他教程,钢琴教程,吉他视频等,希望能给音乐爱好者予最大的帮助!
曲谱内容将不定期更新   上传分享您的乐谱  
乐谱网 Copyright © www.cnscore.com 2003-2012
蜀ICP备05012720号 archiver  免责申明