百度提供广告
当前位置:主页 >> 乐谱在线 >> 吉他和弦谱 >> 

晴天-周杰伦

时间:2007-06-06 17:15来源: 作者: 点击:
-------------------------------------------------------------------------------
歌曲名:晴天  
歌手/乐队:周杰伦
编配者(转载来源): X-club
曲调:1=G
-------------------------------------------------------------------------------
前奏

e|--------------------------|--------------------------|
B|--------3------------3----|--------3--------3-----3--|
G|-----0-----0------------0-|-----------0--------------|
D|--2-------------0h2-------|-----0--------------------|
A|--------------3-----------|--------------------------|
E|--------------------------|--3-----------3-----2-----|

e|--------------------------|---------------------------|
B|--------3------------3----|--------3---------3------3-|
G|-----0-----0------------0-|-----------0---0------0----|
D|--2-------------0h2-------|-----0---------------------|
A|--------------3-----------|---------------------------|
E|--------------------------|--3-----------3------2-----|

(扫弦进入)
(Em转Cmaj7时提早半拍换和弦    g转D/#F时 延迟一拍换和弦)

  |Em      Cmaj7  |G        D/#F |

  |Em      Cmaj7  |G        D/#F |

  Em   Cmaj7      G            D/#F
   故事的小黄花   从出生那年就飘著

  Em   Cmaj7      G           D/#F
   童年的荡鞦韆   随记忆一直晃到现在

  Em                  Cmaj7      
  ㄖㄨㄟ ㄙㄡ ㄙㄡ ㄒ一 ㄉㄡ ㄒ一 ㄌㄚ ㄙㄡ ㄌㄚ

  G                                         D/#F
  ㄒ一 ㄒ一 ㄒ一 ㄒ一 ㄌㄚ ㄒ一 ㄌㄚ ㄙㄡ

  Em    Cmaj7           G             D/#F
  吹著前奏望著天空我    想起花瓣试著掉落   

     Em          Cmaj7             G                  D/#F 
 *為妳翘课的那一天 花落的那一天  教室的那一间我怎麼看不见  
本站面向音乐爱好者,提供数万吉他谱,钢琴谱下载,吉他教程,钢琴教程,吉他视频等,希望能给音乐爱好者予最大的帮助!
曲谱内容将不定期更新   上传分享您的乐谱  
乐谱网 Copyright © www.cnscore.com 2003-2012
蜀ICP备05012720号 archiver  免责申明