百度提供广告
当前位置:主页 >> 音乐学院 >> 吉他学院 >> 新手入门 >> 

怎样读写网络常见的文本六线谱(4)

时间:2007-04-21 22:29来源: 作者: 点击:

它的弹奏方法是拨B弦第7品,然后按弦的手指将弦音推高两个半度(一个全音),以达到和第9品相同的音高。(有时推弦的后半个音会被写在括号里,如---7b(9)---)。

再看下面这个例子:

E---------------------------------------------------------------- 
B------7b9--9r7-------------------------------------------------- 
G---------------------------------------------------------------- 
D---------------------------------------------------------------- 
A---------------------------------------------------------------- 
E---------------------------------------------------------------- 

这表示弹第7品的音,推高两个半度,在保持第9品的音高时再拨弦,然后将弦放松,让音回到原始的音高。有时在乐曲中使用预推弦,也就是在拨弦之前就把弦先推起,然后再拨弦,松弦让音下降。预推弦的写法是这样的:

E---------------------------------------------------------------- 
B------(7)b9r7-------------------------------------------------- 
G---------------------------------------------------------------- 
D---------------------------------------------------------------- 
A---------------------------------------------------------------- 
E---------------------------------------------------------------- 

这表示按第7品,将弦推高两个半度(不发音),然后拨弦和放弦。

有时有的音的推弦很轻微,也许只是被推高了1/4全音。如果遇到这种情况,我们最好将推弦的音值文字注释出来,如:

        1/4推弦 
E---------------------------------------------------------------- 
B------7b-------------------------------------------------------- 
G---------------------------------------------------------------- 
D---------------------------------------------------------------- 
A---------------------------------------------------------------- 
E---------------------------------------------------------------- 

滑弦(slide)

滑弦最通用的标记符号是:/ 表示上行,\\ 表示下行。有时也会见到用 s 来表示滑弦(slide)。

下面的例子是从第7品到第9品的上行滑弦。

E---------------------------------------------------------------- 
B------7/9------------------------------------------------------- 
G---------------------------------------------------------------- 
D---------------------------------------------------------------- 
A---------------------------------------------------------------- 
E---------------------------------------------------------------- 

有时你会看到想这样的记谱:

E---------------------------------------------------------------- 
B------/7-9-7\\---------------------------------------------------
G---------------------------------------------------------------- 
D---------------------------------------------------------------- 
A---------------------------------------------------------------- 
E---------------------------------------------------------------- 

滑弦上行开始和先行停止的位置并没有明确给出。这就需要你根据自己对音乐的理解,来决定弹奏滑音的起始和停止的品位。其实这种弹奏手法是要达到一种效果,音突然从低品位滑上,然后在下滑的过程中消逝。

有时还会出现象下面这样的滑音组合:

本站面向音乐爱好者,提供数万吉他谱,钢琴谱下载,吉他教程,钢琴教程,吉他视频等,希望能给音乐爱好者予最大的帮助!
曲谱内容将不定期更新   上传分享您的乐谱  
乐谱网 Copyright © www.cnscore.com 2003-2012
蜀ICP备05012720号 archiver  免责申明