百度提供广告
当前位置:主页 >> 音乐学院 >> 吉他学院 >> 新手入门 >> 

怎样读写网络常见的文本六线谱(3)

时间:2007-04-21 22:29来源: 作者: 点击:

比如我们写一个D和弦,象下面这样:

EADGBE ----六根弦调弦的音高

xx0232 ----和弦音的品位

这里面的x表示它所标示的弦不能弹奏和发音。而在文本六线谱里,如果在弦上没有任何标注,则表示此弦不发音,所以六线谱的D和弦应该是这样:

E-----2---------------------------------------------------------- 
B-----3---------------------------------------------------------- 
G-----2---------------------------------------------------------- 
D-----0---------------------------------------------------------- 
A---------------------------------------------------------------- 
E---------------------------------------------------------------- 

可以看到在第5、6弦上没有x。在文本六线谱中,x只表示制音弹奏。

另外还有一些符号,用来表示摇把拉弦,拨片擦弦等。这些符号没有固定的标准,有的歌曲六线谱的开头,会将一些特殊符号加以注释。

打弦和拉弦(Hammer on and Pull off)

打弦的符号标注是这样的:

E---------------------------------------------------------------- 
B---------------------------------------------------------------- 
G---------------------------------------------------------------- 
D---------------------------------------------------------------- 
A---------5h7-----------5h7-------------------------------------- 
E---0--0----------0--0------------------------------------------- 

按照上面的谱子弹奏,先弹两下E弦的空弦,再弹奏A弦第5品,然后按弦的手敲击第7品。(具体弹奏手法见教程中的打弦)

拉弦的表示方法与打弦很相似:

E----3p0--------------------------------------------------------- 
B---------3p0---------------------------------------------------- 
G--------------2p0----------------------------------------------- 
D-------------------2-------------------------------------------- 
A---------------------------------------------------------------- 
E---------------------------------------------------------------- 

这是一个下行的布鲁斯音阶,由按弦的手勾拉空弦。先按照数字弹奏音符,在谱中就是2和3品的音,然后按弦的手指通过勾拉的动作,发出空弦音。

由于打弦和勾弦都是靠左手完成,所以你拨弦时,只需拨第一个音。你也可以弹奏象下面这样的一长串的连续勾打,也只需要弹奏第一个音:

E---------------------------------------------------------------- 
B---------------------------------------------------------------- 
G---2h4p2h4p2h4p2h4p2h4p2---------------------------------------- 
D---------------------------------------------------------------- 
A---------------------------------------------------------------- 
E---------------------------------------------------------------- 

推弦(Bends)

文本六线谱中用字母b来表示推弦(如果你还不知道推弦如何弹奏,请看教程),象这样:

E---------------------------------------------------------------- 
B------7b9------------------------------------------------------- 
G---------------------------------------------------------------- 
D---------------------------------------------------------------- 
A---------------------------------------------------------------- 
E---------------------------------------------------------------- 

      
 
本站面向音乐爱好者,提供数万吉他谱,钢琴谱下载,吉他教程,钢琴教程,吉他视频等,希望能给音乐爱好者予最大的帮助!
曲谱内容将不定期更新   上传分享您的乐谱  
乐谱网 Copyright © www.cnscore.com 2003-2012
蜀ICP备05012720号 archiver  免责申明