百度提供广告
当前位置:主页 >> 音乐学院 >> 吉他学院 >> 新手入门 >> 

怎样读写网络常见的文本六线谱(2)

时间:2007-04-21 22:29来源: 作者: 点击:

但有时你也会遇到和弦是象下面这样写出的:

E--------3------------------------------------------------------- 
B-------3-------------------------------------------------------- 
G------4--------------------------------------------------------- 
D-----5---------------------------------------------------------- 
A----5----------------------------------------------------------- 
E---3------------------------------------------------------------ 

从六线谱上的数字来看,我们知道这与上面是同一个G和弦,左手的按法是一样的。但弹奏方法所不同的是,这个和弦要从低音E弦开始向下顺序扫拨弹奏,每根弦都要比前一根弦延迟一小会儿拨击,虽然声音不是同时发出,但当扫完最后一根弦时,六根弦仍会共鸣。下面这个例子还是同样的G和弦,但你会注意到数字之间的距离比上个和弦要大些,所以这次你就需要将每根弦逐一地分别弹奏,而不是从上至下扫拨下来了。

E------------------3--------------------------------------------- 
B---------------3-----3------------------------------------------ 
G------------4-----------4--------------------------------------- 
D---------5-----------------5------------------------------------ 
A------5-----------------------5--------------------------------- 
E---3-----------------------------3------------------------------ 

你也许会问-我怎么才能知道弹奏这些音需要多快多慢呢?这些音的长短都是一致的吗?这也正是文本六线谱与标准曲谱的区别,一般来说文本六线谱不会给出音符时值的长短。需要你自己去多听歌曲的录音来找到节奏。但是也不要失望,文本六线谱中还是会给出一些节奏上的暗示。象上面那个例子,音符之间的距离是均等的,所以我们可以推测它们的音值也是相等的,但具体是八分音符还是四分音符,或是三连音,我们还是无法知道。而且写谱的人有不同的习惯,所以最好还是多听原曲的录音。当你对一首歌非常熟悉之后,它的节奏和旋律也就在你的心里了,谱子只是起一个提示作用,虽然不很清楚,但你学习弹奏很会显得很轻松的。

下面是一个旋律片段,音符之间的不同距离表示音的长短,大家可试着弹奏一下。

E-----------------------0--------4--2-0-------------------------- 
B---0--------------0---------------------------------0----------- 
G------1------1----------------------------1----3---------------- 
D--------2------------------------------------------------------- 
A---------------------------------------------------------------- 
E---------------------------------------------------------------- 

其他常用符号

现在我们已经知道六线谱上的音符如何弹奏了:应该按哪个品,应该拨哪根弦。在文本六线谱中还经常用到一些较重要的符号,包括打弦(hammer-ons),拉弦(pull offs),推弦(bends),揉弦(vibrato)等等。在音符数字之间添加这些符号,来表示此音符的演奏手法。下面是一些很常用的符号:

· h - 打弦(hammer on) 
· p - 拉弦(pull offs) 
· b - 推弦(bends) 
· r - 推弦后的放弦(release bend) 
· / - 上行滑弦(slide up) 
· \\ - 下行滑弦(slide down) 
· v - 揉弦颤音(vibrato)(有时写作~) 
· t - 右手打弦(tap) 
· <> - 泛音(harmonics) 
· x - 弹奏的时候制音 

有时上行滑音和下行滑音都可以用字母s表示。最后的一个x表示制音,是由按弦的手轻触琴弦,再拨弦时所发出的声音是闷的,有种打击乐的效果。要注意,在六线谱里使用的x和在和弦里使用的x是完全不一样的。

本站面向音乐爱好者,提供数万吉他谱,钢琴谱下载,吉他教程,钢琴教程,吉他视频等,希望能给音乐爱好者予最大的帮助!
曲谱内容将不定期更新   上传分享您的乐谱  
乐谱网 Copyright © www.cnscore.com 2003-2012
蜀ICP备05012720号 archiver  免责申明