按歌手名检索ABCDEFGHIJKLMNOPQRSTUVWXYZ
  • 曲谱名:不能说的秘密(修正版)吉他谱

  • 乐谱说明:
  • 歌谱格式:txt
  • 歌谱人气:7023
  • 歌手/乐队:周杰伦
  • 编 配:
  • 词 曲:
  • 曲谱来源:转载
  • 乐友个人曲谱空间
         上传时间:2011/2/9
    加为好友把加为好友
曲谱介绍:
-------------------------------------------------------------------------------
歌曲名:不能说的秘密(修正版) 
歌手/乐队:周杰伦
编配者(转载来源):ppppnpnp (提供)
-------------------------------------------------------------------------------

歌曲名:不能说的秘密
歌手/乐队:周杰伦 
编配者:NP私人制作修正版(提供)
  
上方和弦为吉他1扫弦,6线谱为吉他2伴奏
  
      G         D       G        Dadd9    G        D        G        Dadd9    
-------------------------------------------------------------------------------------------
 e-----------------------------------------------------------------------------------------
 B-----------------------------------------------------------------------------------------
 G------0-0-0-------------0-0-0----2-2-2----0-0-0-------------0-0-0----2-2-2---------------
 D----0--------0-4-4-4--0--------0--------0--------0-4-4-4--0--------0---------------------
 A-----------------------------------------------------------------------------------------
 E----------------------------------------------------------------------------------------- 
                                                                           冷
     G         D                  G        Dadd9    G        D        G        Dadd9
 e-----------------------------------------------------------------------------------------
 B-----------------------------------------------------------------------------------------
 G------0-0-0-----------------------0-0-0-------------0-0-0-------------0-0-0----2-2-2-----
 D----0--------0-4-4-4------------0--------0-4-4-4--0--------0-4-4-4--0--------0-----------
 A-----------------------------------------------------------------------------------------
 E-----------------------------------------------------------------------------------------
      咖啡离开了杯垫              我忍住的情绪在很  后面                             拼
      G        D                  G        Dadd9    G        D         G        Dadd9
 e-----------------------------------------------------------------------------------------	
 B-----------------------------------------------------------------------------------------
 G------0-0-0-----------------------0-0-0----2-2-2----0-0-0--------------0-0-0----2-2-2----
 D----0--------0-4-4-4------------0--------0--------0--------0-4-4-4---0--------0----------
 A-----------------------------------------------------------------------------------------
 E-----------------------------------------------------------------------------------------
      命想挽回的从前              在我脸上依旧清晰  可见                              最
      G        D                          G        Dadd9     G         D        G
 e-----------------------------------------------------------------------------------------
 B-----------------------------------------------------------------------------------------
 G------0-0-0--------------------------------0-0-0---2-2-2----0-0-0----------------0-0-0---
 D----0--------0-4-4-4--------------------0--------0---------0---------0-4-4-4--0----------
 A-----------------------------------------------------------------------------------------
 E-----------------------------------------------------------------------------------------
      美的不是下雨天                      是曾与你 躲过雨的  屋檐
      Dadd9    G        D                 G        Dadd9      G           D        G
 e-----------------------------------------------------------------------------------------
 B-----------------------------------------------------------------------------------------
 G------2-2-2----0-0-0-----------------------0-0-0---2-2-2------0-0-0--------------0-0-0---
 D----0--------0--------0-4-4-4-----------0--------0---------0----------0-4-4-4--0---------
 A-----------------------------------------------------------------------------------------
 E-----------------------------------------------------------------------------------------
        回忆的 画  面	                  在荡着秋千 梦开始  不甜                      你
  
       D      G            EM                      G           EM                
       说把爱渐渐放下会走更远            又何必去改变你走过的世界 
               C	   G                       C             D
     你用你的指尖阻止我说再见            想像你在身边才完全失去之前
             G             EM                      G           EM
     你说把爱渐渐放下会走更远            或许命运的签只让我们遇见 
               C	   G                       C            
     只让我们相恋这一季的秋天            飘落后才发现这幸福的碎片 
     D          G
       要我怎么 捡
      G         D       G        Dadd9    G        D        G        Dadd9    
-------------------------------------------------------------------------------------------
 e-----------------------------------------------------------------------------------------
 B-----------------------------------------------------------------------------------------
 G------0-0-0-------------0-0-0----2-2-2----0-0-0-------------0-0-0----2-2-2---------------
 D----0--------0-4-4-4--0--------0--------0--------0-4-4-4--0--------0---------------------
 A-----------------------------------------------------------------------------------------
 E----------------------------------------------------------------------------------------- 
                                                                           冷
     G         D                  G        Dadd9    G        D        G        Dadd9
 e-----------------------------------------------------------------------------------------
 B-----------------------------------------------------------------------------------------
 G------0-0-0-----------------------0-0-0-------------0-0-0-------------0-0-0----2-2-2-----
 D----0--------0-4-4-4------------0--------0-4-4-4--0--------0-4-4-4--0--------0-----------
 A-----------------------------------------------------------------------------------------
 E-----------------------------------------------------------------------------------------
      咖啡离开了杯垫              我忍住的情绪在很  后面                             拼
      G        D                  G        Dadd9    G        D         G        Dadd9
 e-----------------------------------------------------------------------------------------	
 B-----------------------------------------------------------------------------------------
 G------0-0-0-----------------------0-0-0----2-2-2----0-0-0--------------0-0-0----2-2-2----
 D----0--------0-4-4-4------------0--------0--------0--------0-4-4-4---0--------0----------
 A-----------------------------------------------------------------------------------------
 E-----------------------------------------------------------------------------------------
      命想挽回的从前              在我脸上依旧清晰  可见                              最
      G        D                          G        Dadd9     G         D        G
 e-----------------------------------------------------------------------------------------
 B-----------------------------------------------------------------------------------------
 G------0-0-0--------------------------------0-0-0---2-2-2----0-0-0----------------0-0-0---
 D----0--------0-4-4-4--------------------0--------0---------0---------0-4-4-4--0----------
 A-----------------------------------------------------------------------------------------
 E-----------------------------------------------------------------------------------------
      美的不是下雨天                      是曾与你 躲过雨的  屋檐
      Dadd9    G        D                 G        Dadd9      G           D        G
 e-----------------------------------------------------------------------------------------
 B-----------------------------------------------------------------------------------------
 G------2-2-2----0-0-0-----------------------0-0-0---2-2-2------0-0-0--------------0-0-0---
 D----0--------0--------0-4-4-4-----------0--------0---------0----------0-4-4-4--0---------
 A-----------------------------------------------------------------------------------------
 E-----------------------------------------------------------------------------------------
        回忆的 画  面	                  在荡着秋千 梦开始  不甜                      你
  
       D      G            EM                      G           EM                
       说把爱渐渐放下会走更远            又何必去改变你走过的世界 
               C	   G                       C             D
     你用你的指尖阻止我说再见            想像你在身边才完全失去之前
             G             EM                      G           EM
     你说把爱渐渐放下会走更远            或许命运的签只让我们遇见 
               C	   G                       C            
     只让我们相恋这一季的秋天            飘落后才发现这幸福的碎片 
     D          G
       要我怎么 捡
 
扫弦节奏自选
                                                               私人修正,如有遗漏,请联系我
                                                              QQ:245782966


本站暂不支持工具下载,请点击鼠标右键选择另存为下载
曲谱使用说明:
本站提供的不能说的秘密(修正版)吉他谱txt格式来源于网络及网友上传,本站歌谱仅供音乐爱好者们学习乐器、鉴赏之用,请勿用于任何形式的商业用途,由此而产生的相关责任请您自负。
请您在下载本乐谱24小时之内在本地彻底删除。
本站吉他谱多数为GTP格式,为标准六线谱,需先下载安装软件Guitar Pro才能打开,钢琴谱通常为OVE谱,为标准五线谱,需下载安装overtrue软件才能打开。在打开前请先使用Winrar解压缩。
各位热心的吉他谱爱好者或吉他谱使用者如果发现这个版本的不能说的秘密(修正版)吉他谱有错误,回复该吉他谱通知乐谱网,我们将尽快更正。如果您自己编配有新的[吉他谱]需要和广大的音乐及乐器爱好者交流,欢迎您将[吉他谱]通过本站会员中心的乐谱上传栏目上传分享,乐谱网因您的分享而精彩!
  • 暂无乐友发表评论
  • 共有关于不能说的秘密(修正版)吉他谱的评论,请在下面发表您的评论!
    若您觉得本版本的不能说的秘密(修正版)吉他谱对您有所帮助或者有错误,请回复支持乐谱分享者,谢谢!您的回复与肯定,每一个乐谱上传者持续的动力!(游客无须注册即可对乐谱进行评价回复!)


    本站面向音乐爱好者,提供数万吉他谱,钢琴谱下载,吉他教程,钢琴教程,吉他视频等,希望能给音乐爱好者予最大的帮助!
    曲谱内容将不定期更新   上传分享您的乐谱  
    乐谱网 Copyright © www.cnscore.com 2003-2012 网站简介
    蜀ICP备05012720号 archiver  免责申明